  0
SECTION
  2
HEADER
  9
$ACADVER
  1
AC1003
  9
$INSBASE
 10
0.000000
 20
0.000000
  9
$EXTMIN
 10
0.000000
 20
0.000000
  9
$EXTMAX
 10
199.600000
 20
286.700000
  9
$LIMMIN
 10
0.000000
 20
0.000000
  9
$LIMMAX
 10
199.600000
 20
286.700000
  9
$VIEWCTR
 10
99.800000
 20
143.350000
  9
$VIEWSIZE
 40
286.700000
  9
$PEXTMIN
 10
0.000000
 20
0.000000
 30
0.000000
  9
$PEXTMAX
 10
199.600000
 20
286.700000
 30
0.000000
  9
$SNAPMODE
 70
     0
  9
$SNAPUNIT
 10
1.000000
 20
1.000000
  9
$SNAPBASE
 10
0.000000
 20
0.000000
  9
$SNAPANG
 50
0.000000
  9
$SNAPISOPAIR
 70
     0
  9
$SNAPSTYLE
 70
     0
  9
$GRIDMODE
 70
     0
  9
$GRIDUNIT
 10
0.000000
 20
0.000000
  9
$ORTHOMODE
 70
     0
  9
$REGENMODE
 70
     1
  9
$FILLMODE
 70
     1
  9
$QTEXTMODE
 70
     0
  9
$DRAGMODE
 70
     2
  9
$LTSCALE
 40
0.250000
  9
$OSMODE
 70
     0
  9
$ATTMODE
 70
     1
  9
$TEXTSIZE
 40
0.200000
  9
$TRACEWID
 40
0.050000
  9
$TEXTSTYLE
  7
STANDARD
  9
$CLAYER
  8
0
  9
$CELTYPE
  6
BYLAYER
  9
$CECOLOR
 62
   256
  9
$DIMSCALE
 40
1.000000
  9
$DIMASZ
 40
1.000000
  9
$DIMEXO
 40
0.000000
  9
$DIMDLI
 40
0.500000
  9
$DIMRND
 40
0.000000
  9
$DIMDLE
 40
0.000000
  9
$DIMEXE
 40
0.000000
  9
$DIMTP
 40
0.000000
  9
$DIMTM
 40
0.000000
  9
$DIMTXT
 40
0.180000
  9
$DIMCEN
 40
0.000000
  9
$DIMTSZ
 40
0.000000
  9
$DIMTOL
 70
     0
  9
$DIMLIM
 70
     0
  9
$DIMTIH
 70
     1
  9
$DIMTOH
 70
     1
  9
$DIMSE1
 70
     0
  9
$DIMSE2
 70
     0
  9
$DIMTAD
 70
     0
  9
$DIMZIN
 70
     0
  9
$DIMBLK
  1

  9
$DIMASO
 70
     0
  9
$DIMSHO
 70
     0
  9
$DIMPOST
  1

  9
$DIMAPOST
  1

  9
$DIMALT
 70
     0
  9
$DIMALTD
 70
     0
  9
$DIMALTF
 40
25.400000
  9
$DIMLFAC
 40
1.000000
  9
$DIMTOFL
 70
     0
  9
$DIMTVP
 40
0.000000
  9
$DIMTIX
 70
     0
  9
$DIMSOXD
 70
     0
  9
$DIMSAH
 70
     0
  9
$DIMBLKL
  1

  9
$DIMBLKR
  1

  9
$LUNITS
 70
     2
  9
$LUPREC
 70
     2
  9
$AXISMODE
 70
     0
  9
$AXISUNIT
 10
1.000000
 20
1.000000
  9
$SKETCHINC
 40
0.000000
  9
$FILLETRAD
 40
0.000000
  9
$AUNITS
 70
     1
  9
$AUPREC
 70
     2
  9
$MENU
  1
ACAD
  9
$ELEVATION
 40
0.000000
  9
$THICKNESS
 40
0.000000
  9
$VIEWDIR
 10
0.000000
 20
0.000000
 30
1.000000
  9
$LIMCHECK
 70
     1
  9
$BLIPMODE
 70
     1
  9
$CHAMFERA
 40
0.000000
  9
$CHAMFERB
 40
0.000000
  9
$FASTZOOM
 70
     1
  9
$SKPOLY
 70
     0
  9
$TDCREATE
 40
0.000000
  9
$TDUPDATE
 40
0.000000
  9
$TDINDWG
 40
0.000000
  9
$TDUSRTIMER
 40
0.000000
  9
$USRTIMER
 70
     1
  9
$ANGBASE
 50
0.000000
  9
$ANGDIR
 70
     0
  9
$PDMODE
 70
     0
  9
$PDSIZE
 40
0.000000
  9
$PLINEWID
 40
0.000000
  9
$COORDS
 70
     2
  9
$USERI1
 70
     0
  9
$USERI2
 70
     0
  9
$USERI3
 70
     0
  9
$USERI4
 70
     0
  9
$USERI5
 70
     0
  9
$USERR1
 40
0.000000
  9
$USERR2
 40
0.000000
  9
$USERR3
 40
0.000000
  9
$USERR4
 40
0.000000
  9
$USERR5
 40
0.000000
  0
ENDSEC
  0
SECTION
  2
TABLES
  0
TABLE
  2
LTYPE
 70
     5
  0
LTYPE
  2
CONTINUOUS
 70
    64
  3
Solid line
 72
    65
 73
     0
 40
0.0
  0
LTYPE
  2
HIDDEN
 70
    64
  3
------------------------
 72
    65
 73
     2
 40
12.6
 49
8.4
 49
-4.2
  0
LTYPE
  2
DOT
 70
    64
  3
････････････････････････
 72
    65
 73
     2
 40
8.0
 49
6.0
 49
-2.0
  0
LTYPE
  2
DASHDOT
 70
    64
  3
--･--･--･--･--･--･--･--
 72
    65
 73
     4
 40
50.5
 49
30.0
 49
-9.0
 49
2.5
 49
-9.0
  0
LTYPE
  2
DIVIDE
 70
    64
  3
--･･--･･--･･--･･--･･--
 72
    65
 73
     6
 40
58.0
 49
30.0
 49
-9.0
 49
2.5
 49
-5.0
 49
2.5
 49
-9.0
  0
ENDTAB
  0
TABLE
  2
LAYER
 70
1
  0
LAYER
  2
1
 70
64
 62
7
  6
CONTINUOUS
  0
ENDTAB
  0
TABLE
  2
STYLE
 70
     2
  0
STYLE
  2
STANDARD
 70
    64
 40
0.0
 41
1.0
 50
0.0
 71
     0
 42
0.2
  3
TXT
  4

  0
STYLE
  2
KANJI
 70
    64
 40
0.0
 41
1.0
 50
0.0
 71
     0
 42
0.2
  3
TXT
  4
BIGFONT
  0
ENDTAB
  0
TABLE
  2
VIEW
 70
     0
  0
ENDTAB
  0
ENDSEC
  0
SECTION
  2
BLOCKS
  0
ENDSEC
  0
SECTION
  2
ENTITIES
  0
ARC
  8
1
 62
7
  6
CONTINUOUS
 10
100.000000
 20
114.000000
 40
2.750000
 50
-90.000000
 51
90.000000
  0
ARC
  8
1
 62
7
  6
CONTINUOUS
 10
159.000000
 20
90.000000
 40
2.750000
 50
0.000000
 51
180.000000
  0
CIRCLE
  8
1
 62
7
  6
CONTINUOUS
 10
159.000000
 20
114.000000
 40
2.750000
  0
CIRCLE
  8
1
 62
7
  6
CONTINUOUS
 10
130.000000
 20
114.000000
 40
2.750000
  0
LINE
  8
1
 62
7
  6
CONTINUOUS
 10
100.000000
 20
103.500000
 11
148.000000
 21
103.500000
  0
LINE
  8
1
 62
7
  6
CONTINUOUS
 10
148.000000
 20
103.500000
 11
148.000000
 21
90.000000
  0
LINE
  8
1
 62
7
  6
CONTINUOUS
 10
165.000000
 20
117.000000
 11
165.000000
 21
90.000000
  0
LINE
  8
1
 62
7
  6
CONTINUOUS
 10
100.000000
 20
120.000000
 11
162.000000
 21
120.000000
  0
LINE
  8
1
 62
7
  6
CONTINUOUS
 10
165.000000
 20
117.000000
 11
162.000000
 21
120.000000
  0
ARC
  8
1
 62
7
  6
CONTINUOUS
 10
100.000000
 20
66.000000
 40
2.750000
 50
-90.000000
 51
90.000000
  0
ARC
  8
1
 62
7
  6
CONTINUOUS
 10
159.000000
 20
90.000000
 40
2.750000
 50
180.000000
 51
-0.000000
  0
CIRCLE
  8
1
 62
7
  6
CONTINUOUS
 10
159.000000
 20
66.000000
 40
2.750000
  0
CIRCLE
  8
1
 62
7
  6
CONTINUOUS
 10
130.000000
 20
66.000000
 40
2.750000
  0
LINE
  8
1
 62
7
  6
CONTINUOUS
 10
100.000000
 20
76.500000
 11
148.000000
 21
76.500000
  0
LINE
  8
1
 62
7
  6
CONTINUOUS
 10
148.000000
 20
76.500000
 11
148.000000
 21
90.000000
  0
LINE
  8
1
 62
7
  6
CONTINUOUS
 10
165.000000
 20
63.000000
 11
165.000000
 21
90.000000
  0
LINE
  8
1
 62
7
  6
CONTINUOUS
 10
100.000000
 20
60.000000
 11
162.000000
 21
60.000000
  0
LINE
  8
1
 62
7
  6
CONTINUOUS
 10
165.000000
 20
63.000000
 11
162.000000
 21
60.000000
  0
ARC
  8
1
 62
7
  6
CONTINUOUS
 10
100.000000
 20
114.000000
 40
2.750000
 50
90.000000
 51
-90.000000
  0
ARC
  8
1
 62
7
  6
CONTINUOUS
 10
41.000000
 20
90.000000
 40
2.750000
 50
0.000000
 51
180.000000
  0
CIRCLE
  8
1
 62
7
  6
CONTINUOUS
 10
41.000000
 20
114.000000
 40
2.750000
  0
CIRCLE
  8
1
 62
7
  6
CONTINUOUS
 10
70.000000
 20
114.000000
 40
2.750000
  0
LINE
  8
1
 62
7
  6
CONTINUOUS
 10
100.000000
 20
103.500000
 11
52.000000
 21
103.500000
  0
LINE
  8
1
 62
7
  6
CONTINUOUS
 10
52.000000
 20
103.500000
 11
52.000000
 21
90.000000
  0
LINE
  8
1
 62
7
  6
CONTINUOUS
 10
35.000000
 20
117.000000
 11
35.000000
 21
90.000000
  0
LINE
  8
1
 62
7
  6
CONTINUOUS
 10
100.000000
 20
120.000000
 11
38.000000
 21
120.000000
  0
LINE
  8
1
 62
7
  6
CONTINUOUS
 10
35.000000
 20
117.000000
 11
38.000000
 21
120.000000
  0
ARC
  8
1
 62
7
  6
CONTINUOUS
 10
100.000000
 20
66.000000
 40
2.750000
 50
90.000000
 51
-90.000000
  0
ARC
  8
1
 62
7
  6
CONTINUOUS
 10
41.000000
 20
90.000000
 40
2.750000
 50
180.000000
 51
-0.000000
  0
CIRCLE
  8
1
 62
7
  6
CONTINUOUS
 10
41.000000
 20
66.000000
 40
2.750000
  0
CIRCLE
  8
1
 62
7
  6
CONTINUOUS
 10
70.000000
 20
66.000000
 40
2.750000
  0
LINE
  8
1
 62
7
  6
CONTINUOUS
 10
100.000000
 20
76.500000
 11
52.000000
 21
76.500000
  0
LINE
  8
1
 62
7
  6
CONTINUOUS
 10
52.000000
 20
76.500000
 11
52.000000
 21
90.000000
  0
LINE
  8
1
 62
7
  6
CONTINUOUS
 10
35.000000
 20
63.000000
 11
35.000000
 21
90.000000
  0
LINE
  8
1
 62
7
  6
CONTINUOUS
 10
100.000000
 20
60.000000
 11
38.000000
 21
60.000000
  0
LINE
  8
1
 62
7
  6
CONTINUOUS
 10
35.000000
 20
63.000000
 11
38.000000
 21
60.000000
  0
LINE
  8
1
 62
7
  6
CONTINUOUS
 10
100.000000
 20
227.500000
 11
154.500000
 21
227.500000
  0
LINE
  8
1
 62
7
  6
CONTINUOUS
 10
154.500000
 20
227.500000
 11
154.500000
 21
200.000000
  0
ARC
  8
1
 62
7
  6
CONTINUOUS
 10
100.000000
 20
244.000000
 40
3.250000
 50
-90.000000
 51
90.000000
  0
CIRCLE
  8
1
 62
7
  6
CONTINUOUS
 10
145.000000
 20
244.000000
 40
3.250000
  0
CIRCLE
  8
1
 62
7
  6
CONTINUOUS
 10
171.000000
 20
224.000000
 40
3.250000
  0
LINE
  8
1
 62
7
  6
CONTINUOUS
 10
180.500000
 20
243.250000
 11
180.500000
 21
200.000000
  0
LINE
  8
1
 62
7
  6
CONTINUOUS
 10
170.500000
 20
253.250000
 11
100.000000
 21
253.250000
  0
LINE
  8
1
 62
7
  6
CONTINUOUS
 10
180.500000
 20
243.250000
 11
170.500000
 21
253.250000
  0
LINE
  8
1
 62
7
  6
HIDDEN
 10
100.000000
 20
229.500000
 11
156.500000
 21
229.500000
  0
LINE
  8
1
 62
7
  6
HIDDEN
 10
156.500000
 20
229.500000
 11
156.500000
 21
200.000000
  0
LINE
  8
1
 62
7
  6
CONTINUOUS
 10
100.000000
 20
227.500000
 11
45.500000
 21
227.500000
  0
LINE
  8
1
 62
7
  6
CONTINUOUS
 10
45.500000
 20
227.500000
 11
45.500000
 21
200.000000
  0
ARC
  8
1
 62
7
  6
CONTINUOUS
 10
100.000000
 20
244.000000
 40
3.250000
 50
90.000000
 51
-90.000000
  0
CIRCLE
  8
1
 62
7
  6
CONTINUOUS
 10
55.000000
 20
244.000000
 40
3.250000
  0
CIRCLE
  8
1
 62
7
  6
CONTINUOUS
 10
29.000000
 20
224.000000
 40
3.250000
  0
LINE
  8
1
 62
7
  6
CONTINUOUS
 10
19.500000
 20
243.250000
 11
19.500000
 21
200.000000
  0
LINE
  8
1
 62
7
  6
CONTINUOUS
 10
29.500000
 20
253.250000
 11
100.000000
 21
253.250000
  0
LINE
  8
1
 62
7
  6
CONTINUOUS
 10
19.500000
 20
243.250000
 11
29.500000
 21
253.250000
  0
LINE
  8
1
 62
7
  6
HIDDEN
 10
100.000000
 20
229.500000
 11
43.500000
 21
229.500000
  0
LINE
  8
1
 62
7
  6
HIDDEN
 10
43.500000
 20
229.500000
 11
43.500000
 21
200.000000
  0
LINE
  8
1
 62
7
  6
CONTINUOUS
 10
100.000000
 20
172.500000
 11
154.500000
 21
172.500000
  0
LINE
  8
1
 62
7
  6
CONTINUOUS
 10
154.500000
 20
172.500000
 11
154.500000
 21
200.000000
  0
ARC
  8
1
 62
7
  6
CONTINUOUS
 10
100.000000
 20
156.000000
 40
3.250000
 50
-90.000000
 51
90.000000
  0
CIRCLE
  8
1
 62
7
  6
CONTINUOUS
 10
145.000000
 20
156.000000
 40
3.250000
  0
CIRCLE
  8
1
 62
7
  6
CONTINUOUS
 10
171.000000
 20
176.000000
 40
3.250000
  0
LINE
  8
1
 62
7
  6
CONTINUOUS
 10
180.500000
 20
156.750000
 11
180.500000
 21
200.000000
  0
LINE
  8
1
 62
7
  6
CONTINUOUS
 10
170.500000
 20
146.750000
 11
100.000000
 21
146.750000
  0
LINE
  8
1
 62
7
  6
CONTINUOUS
 10
180.500000
 20
156.750000
 11
170.500000
 21
146.750000
  0
LINE
  8
1
 62
7
  6
HIDDEN
 10
100.000000
 20
170.500000
 11
156.500000
 21
170.500000
  0
LINE
  8
1
 62
7
  6
HIDDEN
 10
156.500000
 20
170.500000
 11
156.500000
 21
200.000000
  0
LINE
  8
1
 62
7
  6
CONTINUOUS
 10
100.000000
 20
172.500000
 11
45.500000
 21
172.500000
  0
LINE
  8
1
 62
7
  6
CONTINUOUS
 10
45.500000
 20
172.500000
 11
45.500000
 21
200.000000
  0
ARC
  8
1
 62
7
  6
CONTINUOUS
 10
100.000000
 20
156.000000
 40
3.250000
 50
90.000000
 51
-90.000000
  0
CIRCLE
  8
1
 62
7
  6
CONTINUOUS
 10
55.000000
 20
156.000000
 40
3.250000
  0
CIRCLE
  8
1
 62
7
  6
CONTINUOUS
 10
29.000000
 20
176.000000
 40
3.250000
  0
LINE
  8
1
 62
7
  6
CONTINUOUS
 10
19.500000
 20
156.750000
 11
19.500000
 21
200.000000
  0
LINE
  8
1
 62
7
  6
CONTINUOUS
 10
29.500000
 20
146.750000
 11
100.000000
 21
146.750000
  0
LINE
  8
1
 62
7
  6
CONTINUOUS
 10
19.500000
 20
156.750000
 11
29.500000
 21
146.750000
  0
LINE
  8
1
 62
7
  6
HIDDEN
 10
100.000000
 20
170.500000
 11
43.500000
 21
170.500000
  0
LINE
  8
1
 62
7
  6
HIDDEN
 10
43.500000
 20
170.500000
 11
43.500000
 21
200.000000
  0
LINE
  8
1
 62
7
  6
HIDDEN
 10
100.000000
 20
105.500000
 11
150.000000
 21
105.500000
  0
LINE
  8
1
 62
7
  6
HIDDEN
 10
150.000000
 20
105.500000
 11
150.000000
 21
90.000000
  0
LINE
  8
1
 62
7
  6
HIDDEN
 10
100.000000
 20
74.500000
 11
150.000000
 21
74.500000
  0
LINE
  8
1
 62
7
  6
HIDDEN
 10
150.000000
 20
74.500000
 11
150.000000
 21
90.000000
  0
LINE
  8
1
 62
7
  6
HIDDEN
 10
100.000000
 20
105.500000
 11
50.000000
 21
105.500000
  0
LINE
  8
1
 62
7
  6
HIDDEN
 10
50.000000
 20
105.500000
 11
50.000000
 21
90.000000
  0
LINE
  8
1
 62
7
  6
HIDDEN
 10
100.000000
 20
105.500000
 11
50.000000
 21
105.500000
  0
LINE
  8
1
 62
7
  6
HIDDEN
 10
50.000000
 20
105.500000
 11
50.000000
 21
90.000000
  0
LINE
  8
1
 62
7
  6
HIDDEN
 10
100.000000
 20
74.500000
 11
50.000000
 21
74.500000
  0
LINE
  8
1
 62
7
  6
HIDDEN
 10
50.000000
 20
74.500000
 11
50.000000
 21
90.000000
  0
LINE
  8
1
 62
7
  6
CONTINUOUS
 10
52.000000
 20
82.000000
 11
148.000000
 21
82.000000
  0
TEXT
  8
1
 62
7
  6
CONTINUOUS
 10
97.250000
 20
82.050000
 40
4.000000
 41
0.625000
  1
96
  7
KANJI
 50
0.000000
 51
0.000000
  0
LINE
  8
1
 62
7
  6
CONTINUOUS
 10
70.000000
 20
64.000000
 11
70.000000
 21
47.500000
  0
LINE
  8
1
 62
7
  6
CONTINUOUS
 10
100.000000
 20
63.500000
 11
100.000000
 21
47.500000
  0
LINE
  8
1
 62
7
  6
CONTINUOUS
 10
70.000000
 20
49.500000
 11
100.000000
 21
49.500000
  0
TEXT
  8
1
 62
7
  6
CONTINUOUS
 10
82.250000
 20
49.550000
 40
4.000000
 41
0.625000
  1
30
  7
KANJI
 50
0.000000
 51
0.000000
  0
LINE
  8
1
 62
7
  6
CONTINUOUS
 10
100.000000
 20
63.500000
 11
100.000000
 21
47.500000
  0
LINE
  8
1
 62
7
  6
CONTINUOUS
 10
130.000000
 20
63.500000
 11
130.000000
 21
47.500000
  0
LINE
  8
1
 62
7
  6
CONTINUOUS
 10
100.000000
 20
49.500000
 11
130.000000
 21
49.500000
  0
TEXT
  8
1
 62
7
  6
CONTINUOUS
 10
112.250000
 20
49.550000
 40
4.000000
 41
0.625000
  1
30
  7
KANJI
 50
0.000000
 51
0.000000
  0
LINE
  8
1
 62
7
  6
CONTINUOUS
 10
130.000000
 20
64.000000
 11
130.000000
 21
47.500000
  0
LINE
  8
1
 62
7
  6
CONTINUOUS
 10
159.000000
 20
63.500000
 11
159.000000
 21
47.500000
  0
LINE
  8
1
 62
7
  6
CONTINUOUS
 10
130.000000
 20
49.500000
 11
159.000000
 21
49.500000
  0
TEXT
  8
1
 62
7
  6
CONTINUOUS
 10
141.750000
 20
49.550000
 40
4.000000
 41
0.625000
  1
29
  7
KANJI
 50
0.000000
 51
0.000000
  0
LINE
  8
1
 62
7
  6
CONTINUOUS
 10
41.000000
 20
63.000000
 11
41.000000
 21
47.500000
  0
LINE
  8
1
 62
7
  6
CONTINUOUS
 10
70.000000
 20
62.000000
 11
70.000000
 21
47.500000
  0
LINE
  8
1
 62
7
  6
CONTINUOUS
 10
41.000000
 20
49.500000
 11
70.000000
 21
49.500000
  0
TEXT
  8
1
 62
7
  6
CONTINUOUS
 10
52.750000
 20
49.550000
 40
4.000000
 41
0.625000
  1
29
  7
KANJI
 50
0.000000
 51
0.000000
  0
LINE
  8
1
 62
7
  6
CONTINUOUS
 10
42.000000
 20
82.000000
 11
52.000000
 21
82.000000
  0
TEXT
  8
1
 62
7
  6
CONTINUOUS
 10
49.500000
 20
82.050000
 40
4.000000
 41
0.250000
  1
2
  7
KANJI
 50
0.000000
 51
0.000000
  0
LINE
  8
1
 62
7
  6
CONTINUOUS
 10
148.000000
 20
84.000000
 11
148.000000
 21
84.500000
  0
LINE
  8
1
 62
7
  6
CONTINUOUS
 10
150.000000
 20
84.000000
 11
150.000000
 21
84.500000
  0
LINE
  8
1
 62
7
  6
CONTINUOUS
 10
148.000000
 20
82.500000
 11
158.000000
 21
82.500000
  0
TEXT
  8
1
 62
7
  6
CONTINUOUS
 10
147.500000
 20
82.550000
 40
4.000000
 41
0.250000
  1
2
  7
KANJI
 50
0.000000
 51
0.000000
  0
LINE
  8
1
 62
7
  6
CONTINUOUS
 10
35.000000
 20
65.500000
 11
35.000000
 21
38.000000
  0
LINE
  8
1
 62
7
  6
CONTINUOUS
 10
165.000000
 20
65.000000
 11
165.000000
 21
38.000000
  0
LINE
  8
1
 62
7
  6
CONTINUOUS
 10
35.000000
 20
40.000000
 11
165.000000
 21
40.000000
  0
TEXT
  8
1
 62
7
  6
CONTINUOUS
 10
96.000000
 20
40.050000
 40
4.000000
 41
0.625000
  1
130
  7
KANJI
 50
0.000000
 51
0.000000
  0
LINE
  8
1
 62
7
  6
CONTINUOUS
 10
41.500000
 20
60.000000
 11
22.500000
 21
60.000000
  0
LINE
  8
1
 62
7
  6
CONTINUOUS
 10
42.000000
 20
120.000000
 11
22.500000
 21
120.000000
  0
LINE
  8
1
 62
7
  6
CONTINUOUS
 10
24.500000
 20
60.000000
 11
24.500000
 21
120.000000
  0
TEXT
  8
1
 62
7
  6
CONTINUOUS
 10
24.450000
 20
87.250000
 40
4.000000
 41
0.625000
  1
60
  7
KANJI
 50
90.000000
 51
0.000000
  0
LINE
  8
1
 62
7
  6
CONTINUOUS
 10
39.000000
 20
90.000000
 11
28.500000
 21
90.000000
  0
LINE
  8
1
 62
7
  6
CONTINUOUS
 10
39.000000
 20
114.000000
 11
28.500000
 21
114.000000
  0
LINE
  8
1
 62
7
  6
CONTINUOUS
 10
30.500000
 20
90.000000
 11
30.500000
 21
114.000000
  0
TEXT
  8
1
 62
7
  6
CONTINUOUS
 10
30.450000
 20
99.250000
 40
4.000000
 41
0.625000
  1
24
  7
KANJI
 50
90.000000
 51
0.000000
  0
LINE
  8
1
 62
7
  6
CONTINUOUS
 10
38.500000
 20
66.000000
 11
28.500000
 21
66.000000
  0
LINE
  8
1
 62
7
  6
CONTINUOUS
 10
38.500000
 20
90.000000
 11
28.500000
 21
90.000000
  0
LINE
  8
1
 62
7
  6
CONTINUOUS
 10
30.500000
 20
66.000000
 11
30.500000
 21
90.000000
  0
TEXT
  8
1
 62
7
  6
CONTINUOUS
 10
30.450000
 20
75.250000
 40
4.000000
 41
0.625000
  1
24
  7
KANJI
 50
90.000000
 51
0.000000
  0
LINE
  8
1
 62
7
  6
CONTINUOUS
 10
81.500000
 20
76.500000
 11
81.500000
 21
103.500000
  0
TEXT
  8
1
 62
7
  6
CONTINUOUS
 10
81.450000
 20
87.250000
 40
4.000000
 41
0.625000
  1
27
  7
KANJI
 50
90.000000
 51
0.000000
  0
LINE
  8
1
 62
7
  6
CONTINUOUS
 10
81.500000
 20
66.500000
 11
81.500000
 21
76.500000
  0
TEXT
  8
1
 62
7
  6
CONTINUOUS
 10
81.450000
 20
74.000000
 40
4.000000
 41
0.250000
  1
2
  7
KANJI
 50
90.000000
 51
0.000000
  0
LINE
  8
1
 62
7
  6
CONTINUOUS
 10
81.500000
 20
103.500000
 11
81.500000
 21
113.500000
  0
TEXT
  8
1
 62
7
  6
CONTINUOUS
 10
81.450000
 20
103.000000
 40
4.000000
 41
0.250000
  1
2
  7
KANJI
 50
90.000000
 51
0.000000
  0
LINE
  8
1
 62
7
  6
CONTINUOUS
 10
164.728000
 20
120.079000
 11
167.000000
 21
123.000000
  0
LINE
  8
1
 62
7
  6
CONTINUOUS
 10
167.000000
 20
123.000000
 11
174.500000
 21
123.000000
  0
TEXT
  8
1
 62
7
  6
CONTINUOUS
 10
164.750000
 20
123.062250
 40
4.980000
 41
0.602410
  1
4-C3
  7
KANJI
 50
0.000000
 51
0.000000
  0
LINE
  8
1
 62
7
  6
CONTINUOUS
 10
19.500000
 20
158.000000
 11
19.500000
 21
131.000000
  0
LINE
  8
1
 62
7
  6
CONTINUOUS
 10
180.500000
 20
158.500000
 11
180.500000
 21
131.000000
  0
LINE
  8
1
 62
7
  6
CONTINUOUS
 10
19.500000
 20
133.000000
 11
180.500000
 21
133.000000
  0
TEXT
  8
1
 62
7
  6
CONTINUOUS
 10
96.000000
 20
133.050000
 40
4.000000
 41
0.625000
  1
161
  7
KANJI
 50
0.000000
 51
0.000000
  0
LINE
  8
1
 62
7
  6
CONTINUOUS
 10
100.000000
 20
154.000000
 11
100.000000
 21
138.000000
  0
LINE
  8
1
 62
7
  6
CONTINUOUS
 10
145.000000
 20
154.000000
 11
145.000000
 21
138.000000
  0
LINE
  8
1
 62
7
  6
CONTINUOUS
 10
100.000000
 20
140.000000
 11
145.000000
 21
140.000000
  0
TEXT
  8
1
 62
7
  6
CONTINUOUS
 10
119.750000
 20
140.050000
 40
4.000000
 41
0.625000
  1
45
  7
KANJI
 50
0.000000
 51
0.000000
  0
LINE
  8
1
 62
7
  6
CONTINUOUS
 10
55.000000
 20
154.000000
 11
55.000000
 21
138.000000
  0
LINE
  8
1
 62
7
  6
CONTINUOUS
 10
100.000000
 20
154.500000
 11
100.000000
 21
138.000000
  0
LINE
  8
1
 62
7
  6
CONTINUOUS
 10
55.000000
 20
140.000000
 11
100.000000
 21
140.000000
  0
TEXT
  8
1
 62
7
  6
CONTINUOUS
 10
74.750000
 20
140.050000
 40
4.000000
 41
0.625000
  1
45
  7
KANJI
 50
0.000000
 51
0.000000
  0
LINE
  8
1
 62
7
  6
CONTINUOUS
 10
29.000000
 20
174.000000
 11
29.000000
 21
138.000000
  0
LINE
  8
1
 62
7
  6
CONTINUOUS
 10
55.000000
 20
144.750000
 11
55.000000
 21
138.000000
  0
LINE
  8
1
 62
7
  6
CONTINUOUS
 10
29.000000
 20
140.000000
 11
55.000000
 21
140.000000
  0
TEXT
  8
1
 62
7
  6
CONTINUOUS
 10
39.250000
 20
140.050000
 40
4.000000
 41
0.625000
  1
26
  7
KANJI
 50
0.000000
 51
0.000000
  0
LINE
  8
1
 62
7
  6
CONTINUOUS
 10
145.000000
 20
154.000000
 11
145.000000
 21
138.000000
  0
LINE
  8
1
 62
7
  6
CONTINUOUS
 10
171.000000
 20
173.500000
 11
171.000000
 21
138.000000
  0
LINE
  8
1
 62
7
  6
CONTINUOUS
 10
145.000000
 20
140.000000
 11
171.000000
 21
140.000000
  0
TEXT
  8
1
 62
7
  6
CONTINUOUS
 10
155.250000
 20
140.050000
 40
4.000000
 41
0.625000
  1
26
  7
KANJI
 50
0.000000
 51
0.000000
  0
LINE
  8
1
 62
7
  6
CONTINUOUS
 10
154.500000
 20
181.500000
 11
154.500000
 21
183.000000
  0
LINE
  8
1
 62
7
  6
CONTINUOUS
 10
45.500000
 20
181.000000
 11
154.500000
 21
181.000000
  0
TEXT
  8
1
 62
7
  6
CONTINUOUS
 10
96.000000
 20
181.050000
 40
4.000000
 41
0.625000
  1
109
  7
KANJI
 50
0.000000
 51
0.000000
  0
LINE
  8
1
 62
7
  6
CONTINUOUS
 10
154.500000
 20
181.000000
 11
164.500000
 21
181.000000
  0
TEXT
  8
1
 62
7
  6
CONTINUOUS
 10
154.000000
 20
181.050000
 40
4.000000
 41
0.250000
  1
2
  7
KANJI
 50
0.000000
 51
0.000000
  0
LINE
  8
1
 62
7
  6
CONTINUOUS
 10
35.500000
 20
181.000000
 11
45.500000
 21
181.000000
  0
TEXT
  8
1
 62
7
  6
CONTINUOUS
 10
43.000000
 20
181.050000
 40
4.000000
 41
0.250000
  1
2
  7
KANJI
 50
0.000000
 51
0.000000
  0
LINE
  8
1
 62
7
  6
CONTINUOUS
 10
130.000000
 20
172.500000
 11
130.000000
 21
227.500000
  0
TEXT
  8
1
 62
7
  6
CONTINUOUS
 10
129.950000
 20
197.250000
 40
4.000000
 41
0.625000
  1
55
  7
KANJI
 50
90.000000
 51
0.000000
  0
LINE
  8
1
 62
7
  6
CONTINUOUS
 10
130.000000
 20
162.500000
 11
130.000000
 21
172.500000
  0
TEXT
  8
1
 62
7
  6
CONTINUOUS
 10
129.950000
 20
170.000000
 40
4.000000
 41
0.250000
  1
2
  7
KANJI
 50
90.000000
 51
0.000000
  0
LINE
  8
1
 62
7
  6
CONTINUOUS
 10
130.000000
 20
227.500000
 11
130.000000
 21
237.500000
  0
TEXT
  8
1
 62
7
  6
CONTINUOUS
 10
129.950000
 20
227.000000
 40
4.000000
 41
0.250000
  1
2
  7
KANJI
 50
90.000000
 51
0.000000
  0
LINE
  8
1
 62
7
  6
CONTINUOUS
 10
27.000000
 20
146.750000
 11
7.000000
 21
146.750000
  0
LINE
  8
1
 62
7
  6
CONTINUOUS
 10
27.500000
 20
253.250000
 11
7.000000
 21
253.250000
  0
LINE
  8
1
 62
7
  6
CONTINUOUS
 10
9.000000
 20
146.750000
 11
9.000000
 21
253.250000
  0
TEXT
  8
1
 62
7
  6
CONTINUOUS
 10
8.950000
 20
192.250000
 40
4.000000
 41
0.669643
  1
106.50
  7
KANJI
 50
90.000000
 51
0.000000
  0
LINE
  8
1
 62
7
  6
CONTINUOUS
 10
27.000000
 20
200.000000
 11
13.500000
 21
200.000000
  0
LINE
  8
1
 62
7
  6
CONTINUOUS
 10
27.000000
 20
224.000000
 11
13.500000
 21
224.000000
  0
LINE
  8
1
 62
7
  6
CONTINUOUS
 10
15.500000
 20
200.000000
 11
15.500000
 21
224.000000
  0
TEXT
  8
1
 62
7
  6
CONTINUOUS
 10
15.450000
 20
209.250000
 40
4.000000
 41
0.625000
  1
24
  7
KANJI
 50
90.000000
 51
0.000000
  0
LINE
  8
1
 62
7
  6
CONTINUOUS
 10
27.000000
 20
176.000000
 11
13.500000
 21
176.000000
  0
LINE
  8
1
 62
7
  6
CONTINUOUS
 10
27.000000
 20
200.000000
 11
13.500000
 21
200.000000
  0
LINE
  8
1
 62
7
  6
CONTINUOUS
 10
15.500000
 20
176.000000
 11
15.500000
 21
200.000000
  0
TEXT
  8
1
 62
7
  6
CONTINUOUS
 10
15.450000
 20
185.250000
 40
4.000000
 41
0.625000
  1
24
  7
KANJI
 50
90.000000
 51
0.000000
  0
LINE
  8
1
 62
7
  6
CONTINUOUS
 10
147.425000
 20
248.773000
 11
152.500000
 21
258.500000
  0
LINE
  8
1
 62
7
  6
CONTINUOUS
 10
152.500000
 20
258.500000
 11
165.500000
 21
258.500000
  0
TEXT
  8
1
 62
7
  6
CONTINUOUS
 10
148.500000
 20
258.562250
 40
4.980000
 41
0.649657
  1
10-φ6.5
  7
KANJI
 50
0.000000
 51
0.000000
  0
LINE
  8
1
 62
7
  6
CONTINUOUS
 10
176.812000
 20
249.828000
 11
180.000000
 21
257.000000
  0
LINE
  8
1
 62
7
  6
CONTINUOUS
 10
180.000000
 20
257.000000
 11
197.000000
 21
257.000000
  0
TEXT
  8
1
 62
7
  6
CONTINUOUS
 10
181.000000
 20
257.062250
 40
4.980000
 41
0.602410
  1
4-C10
  7
KANJI
 50
0.000000
 51
0.000000
  0
LINE
  8
1
 62
7
  6
CONTINUOUS
 10
160.414000
 20
91.414000
 11
167.000000
 21
98.000000
  0
LINE
  8
1
 62
7
  6
CONTINUOUS
 10
167.000000
 20
98.000000
 11
180.500000
 21
98.000000
  0
TEXT
  8
1
 62
7
  6
CONTINUOUS
 10
169.250000
 20
97.650000
 40
4.000000
 41
0.735294
  1
12-φ5.5
  7
KANJI
 50
0.000000
 51
0.000000
  0
LINE
  8
1
 62
7
  6
CONTINUOUS
 10
98.000000
 20
200.000000
 11
75.000000
 21
200.000000
  0
LINE
  8
1
 62
7
  6
CONTINUOUS
 10
110.500000
 20
244.000000
 11
75.000000
 21
244.000000
  0
LINE
  8
1
 62
7
  6
CONTINUOUS
 10
77.000000
 20
200.000000
 11
77.000000
 21
244.000000
  0
TEXT
  8
1
 62
7
  6
CONTINUOUS
 10
76.950000
 20
219.750000
 40
4.000000
 41
0.500000
  1
44
  7
KANJI
 50
90.000000
 51
0.000000
  0
LINE
  8
1
 62
7
  6
CONTINUOUS
 10
107.000000
 20
156.000000
 11
75.000000
 21
156.000000
  0
LINE
  8
1
 62
7
  6
CONTINUOUS
 10
77.000000
 20
156.000000
 11
77.000000
 21
200.000000
  0
TEXT
  8
1
 62
7
  6
CONTINUOUS
 10
76.950000
 20
175.750000
 40
4.000000
 41
0.500000
  1
44
  7
KANJI
 50
90.000000
 51
0.000000
  0
LINE
  8
1
 62
7
  6
CONTINUOUS
 10
162.500000
 20
224.000000
 11
177.500000
 21
224.000000
  0
LINE
  8
1
 62
7
  6
CONTINUOUS
 10
171.000000
 20
233.000000
 11
171.000000
 21
214.500000
  0
LINE
  8
1
 62
7
  6
CONTINUOUS
 10
171.000000
 20
183.000000
 11
171.000000
 21
172.750000
  0
LINE
  8
1
 62
7
  6
CONTINUOUS
 10
165.500000
 20
176.000000
 11
176.000000
 21
176.000000
  0
LINE
  8
1
 62
7
  6
CONTINUOUS
 10
140.500000
 20
156.000000
 11
150.000000
 21
156.000000
  0
LINE
  8
1
 62
7
  6
CONTINUOUS
 10
145.000000
 20
160.500000
 11
145.000000
 21
154.000000
  0
LINE
  8
1
 62
7
  6
CONTINUOUS
 10
51.000000
 20
156.000000
 11
60.500000
 21
156.000000
  0
LINE
  8
1
 62
7
  6
CONTINUOUS
 10
55.000000
 20
154.000000
 11
55.000000
 21
160.500000
  0
LINE
  8
1
 62
7
  6
CONTINUOUS
 10
27.000000
 20
176.000000
 11
34.500000
 21
176.000000
  0
LINE
  8
1
 62
7
  6
CONTINUOUS
 10
29.000000
 20
174.000000
 11
29.000000
 21
181.000000
  0
LINE
  8
1
 62
7
  6
CONTINUOUS
 10
27.000000
 20
224.000000
 11
34.500000
 21
224.000000
  0
LINE
  8
1
 62
7
  6
CONTINUOUS
 10
29.000000
 20
220.000000
 11
29.000000
 21
228.000000
  0
LINE
  8
1
 62
7
  6
CONTINUOUS
 10
50.000000
 20
244.000000
 11
60.500000
 21
244.000000
  0
LINE
  8
1
 62
7
  6
CONTINUOUS
 10
55.000000
 20
250.500000
 11
55.000000
 21
238.000000
  0
LINE
  8
1
 62
7
  6
CONTINUOUS
 10
100.000000
 20
250.000000
 11
100.000000
 21
238.000000
  0
LINE
  8
1
 62
7
  6
CONTINUOUS
 10
145.000000
 20
249.000000
 11
145.000000
 21
239.000000
  0
LINE
  8
1
 62
7
  6
CONTINUOUS
 10
138.500000
 20
244.000000
 11
152.000000
 21
244.000000
  0
LINE
  8
1
 62
7
  6
CONTINUOUS
 10
39.000000
 20
114.000000
 11
49.500000
 21
114.000000
  0
LINE
  8
1
 62
7
  6
CONTINUOUS
 10
65.000000
 20
114.000000
 11
75.000000
 21
114.000000
  0
LINE
  8
1
 62
7
  6
CONTINUOUS
 10
70.000000
 20
118.000000
 11
70.000000
 21
109.000000
  0
LINE
  8
1
 62
7
  6
CONTINUOUS
 10
41.000000
 20
117.500000
 11
41.000000
 21
109.500000
  0
LINE
  8
1
 62
7
  6
CONTINUOUS
 10
95.500000
 20
114.000000
 11
105.000000
 21
114.000000
  0
LINE
  8
1
 62
7
  6
CONTINUOUS
 10
100.000000
 20
118.500000
 11
100.000000
 21
109.500000
  0
LINE
  8
1
 62
7
  6
CONTINUOUS
 10
125.500000
 20
114.000000
 11
134.000000
 21
114.000000
  0
LINE
  8
1
 62
7
  6
CONTINUOUS
 10
130.000000
 20
118.000000
 11
130.000000
 21
109.000000
  0
LINE
  8
1
 62
7
  6
CONTINUOUS
 10
154.500000
 20
114.000000
 11
163.500000
 21
114.000000
  0
LINE
  8
1
 62
7
  6
CONTINUOUS
 10
159.000000
 20
118.000000
 11
159.000000
 21
109.500000
  0
LINE
  8
1
 62
7
  6
CONTINUOUS
 10
159.000000
 20
94.000000
 11
159.000000
 21
86.000000
  0
LINE
  8
1
 62
7
  6
CONTINUOUS
 10
154.500000
 20
90.000000
 11
162.500000
 21
90.000000
  0
LINE
  8
1
 62
7
  6
CONTINUOUS
 10
155.000000
 20
66.000000
 11
163.500000
 21
66.000000
  0
LINE
  8
1
 62
7
  6
CONTINUOUS
 10
159.000000
 20
70.500000
 11
159.000000
 21
63.500000
  0
LINE
  8
1
 62
7
  6
CONTINUOUS
 10
126.000000
 20
66.000000
 11
134.500000
 21
66.000000
  0
LINE
  8
1
 62
7
  6
CONTINUOUS
 10
130.000000
 20
70.000000
 11
130.000000
 21
64.000000
  0
LINE
  8
1
 62
7
  6
CONTINUOUS
 10
96.500000
 20
66.000000
 11
103.500000
 21
66.000000
  0
LINE
  8
1
 62
7
  6
CONTINUOUS
 10
100.000000
 20
70.000000
 11
100.000000
 21
62.000000
  0
LINE
  8
1
 62
7
  6
CONTINUOUS
 10
66.000000
 20
66.000000
 11
73.500000
 21
66.000000
  0
LINE
  8
1
 62
7
  6
CONTINUOUS
 10
70.000000
 20
70.500000
 11
70.000000
 21
64.000000
  0
LINE
  8
1
 62
7
  6
CONTINUOUS
 10
38.250000
 20
66.000000
 11
45.000000
 21
66.000000
  0
LINE
  8
1
 62
7
  6
CONTINUOUS
 10
41.000000
 20
70.000000
 11
41.000000
 21
63.000000
  0
LINE
  8
1
 62
7
  6
CONTINUOUS
 10
39.500000
 20
90.000000
 11
45.500000
 21
90.000000
  0
LINE
  8
1
 62
7
  6
CONTINUOUS
 10
41.000000
 20
93.500000
 11
41.000000
 21
85.000000
  0
ENDSEC
  0
EOF
